  0
SECTION
  2
HEADER
  9
$ACADVER
  1
AC1015
  9
$ACADMAINTVER
 70
     6
  9
$DWGCODEPAGE
  3
ANSI_1254
  9
$INSBASE
 10
0.0
 20
0.0
 30
0.0
  9
$EXTMIN
 10
0.0
 20
0.0
 30
0.0
  9
$EXTMAX
 10
279.4
 20
215.9
 30
0.0
  9
$LIMMIN
 10
0.0
 20
0.0
  9
$LIMMAX
 10
279.4
 20
215.9
  9
$ORTHOMODE
 70
     0
  9
$REGENMODE
 70
     1
  9
$FILLMODE
 70
     1
  9
$QTEXTMODE
 70
     0
  9
$MIRRTEXT
 70
     1
  9
$LTSCALE
 40
1.0
  9
$ATTMODE
 70
     1
  9
$TEXTSIZE
 40
3.5
  9
$TRACEWID
 40
1.0
  9
$TEXTSTYLE
  7
Standard
  9
$CLAYER
  8
0
  9
$CELTYPE
  6
ByLayer
  9
$CECOLOR
 62
   256
  9
$CELTSCALE
 40
1.0
  9
$DISPSILH
 70
     0
  9
$DIMSCALE
 40
1.0
  9
$DIMASZ
 40
3.5
  9
$DIMEXO
 40
1.0
  9
$DIMDLI
 40
3.75
  9
$DIMRND
 40
0.0
  9
$DIMDLE
 40
0.0
  9
$DIMEXE
 40
1.0
  9
$DIMTP
 40
0.0
  9
$DIMTM
 40
0.0
  9
$DIMTXT
 40
3.5
  9
$DIMCEN
 40
2.5
  9
$DIMTSZ
 40
0.0
  9
$DIMTOL
 70
     0
  9
$DIMLIM
 70
     0
  9
$DIMTIH
 70
     1
  9
$DIMTOH
 70
     1
  9
$DIMSE1
 70
     0
  9
$DIMSE2
 70
     0
  9
$DIMTAD
 70
     1
  9
$DIMZIN
 70
     0
  9
$DIMBLK
  1

  9
$DIMASO
 70
     1
  9
$DIMSHO
 70
     1
  9
$DIMPOST
  1

  9
$DIMAPOST
  1

  9
$DIMALT
 70
     0
  9
$DIMALTD
 70
     3
  9
$DIMALTF
 40
0.0393700787
  9
$DIMLFAC
 40
1.0
  9
$DIMTOFL
 70
     1
  9
$DIMTVP
 40
0.0
  9
$DIMTIX
 70
     0
  9
$DIMSOXD
 70
     0
  9
$DIMSAH
 70
     0
  9
$DIMBLK1
  1

  9
$DIMBLK2
  1

  9
$DIMSTYLE
  2
ISO-25
  9
$DIMCLRD
 70
     0
  9
$DIMCLRE
 70
     0
  9
$DIMCLRT
 70
     0
  9
$DIMTFAC
 40
1.0
  9
$DIMGAP
 40
1.524
  9
$DIMJUST
 70
     0
  9
$DIMSD1
 70
     0
  9
$DIMSD2
 70
     0
  9
$DIMTOLJ
 70
     0
  9
$DIMTZIN
 70
     0
  9
$DIMALTZ
 70
     0
  9
$DIMALTTZ
 70
     0
  9
$DIMUPT
 70
     0
  9
$DIMDEC
 70
     2
  9
$DIMTDEC
 70
     2
  9
$DIMALTU
 70
     2
  9
$DIMALTTD
 70
     3
  9
$DIMTXSTY
  7
Standard
  9
$DIMAUNIT
 70
     0
  9
$DIMADEC
 70
     2
  9
$DIMALTRND
 40
0.0
  9
$DIMAZIN
 70
     0
  9
$DIMDSEP
 70
    44
  9
$DIMATFIT
 70
     3
  9
$DIMFRAC
 70
     0
  9
$DIMLDRBLK
  1

  9
$DIMLUNIT
 70
     2
  9
$DIMLWD
 70
    -2
  9
$DIMLWE
 70
    -2
  9
$DIMTMOVE
 70
     0
  9
$LUNITS
 70
     2
  9
$LUPREC
 70
     2
  9
$SKETCHINC
 40
1.0
  9
$FILLETRAD
 40
10.0
  9
$AUNITS
 70
     0
  9
$AUPREC
 70
     2
  9
$MENU
  1
.
  9
$ELEVATION
 40
0.0
  9
$PELEVATION
 40
0.0
  9
$THICKNESS
 40
0.0
  9
$LIMCHECK
 70
     0
  9
$CHAMFERA
 40
0.0
  9
$CHAMFERB
 40
0.0
  9
$CHAMFERC
 40
0.0
  9
$CHAMFERD
 40
0.0
  9
$SKPOLY
 70
     0
  9
$TDCREATE
 40
2458985.690975764
  9
$TDUCREATE
 40
2458985.565975764
  9
$TDUPDATE
 40
2458985.690976134
  9
$TDUUPDATE
 40
2458985.565976134
  9
$TDINDWG
 40
0.0000000116
  9
$TDUSRTIMER
 40
0.0000000116
  9
$USRTIMER
 70
     1
  9
$ANGBASE
 50
0.0
  9
$ANGDIR
 70
     0
  9
$PDMODE
 70
     0
  9
$PDSIZE
 40
-1.0
  9
$PLINEWID
 40
0.0
  9
$SPLFRAME
 70
     0
  9
$SPLINETYPE
 70
     6
  9
$SPLINESEGS
 70
     8
  9
$HANDSEED
  5
CB
  9
$SURFTAB1
 70
     6
  9
$SURFTAB2
 70
     6
  9
$SURFTYPE
 70
     6
  9
$SURFU
 70
     6
  9
$SURFV
 70
     6
  9
$UCSBASE
  2

  9
$UCSNAME
  2

  9
$UCSORG
 10
0.0
 20
0.0
 30
0.0
  9
$UCSXDIR
 10
1.0
 20
0.0
 30
0.0
  9
$UCSYDIR
 10
0.0
 20
1.0
 30
0.0
  9
$UCSORTHOREF
  2

  9
$UCSORTHOVIEW
 70
     0
  9
$UCSORGTOP
 10
0.0
 20
0.0
 30
0.0
  9
$UCSORGBOTTOM
 10
0.0
 20
0.0
 30
0.0
  9
$UCSORGLEFT
 10
0.0
 20
0.0
 30
0.0
  9
$UCSORGRIGHT
 10
0.0
 20
0.0
 30
0.0
  9
$UCSORGFRONT
 10
0.0
 20
0.0
 30
0.0
  9
$UCSORGBACK
 10
0.0
 20
0.0
 30
0.0
  9
$PUCSBASE
  2

  9
$PUCSNAME
  2

  9
$PUCSORG
 10
0.0
 20
0.0
 30
0.0
  9
$PUCSXDIR
 10
1.0
 20
0.0
 30
0.0
  9
$PUCSYDIR
 10
0.0
 20
1.0
 30
0.0
  9
$PUCSORTHOREF
  2

  9
$PUCSORTHOVIEW
 70
     0
  9
$PUCSORGTOP
 10
0.0
 20
0.0
 30
0.0
  9
$PUCSORGBOTTOM
 10
0.0
 20
0.0
 30
0.0
  9
$PUCSORGLEFT
 10
0.0
 20
0.0
 30
0.0
  9
$PUCSORGRIGHT
 10
0.0
 20
0.0
 30
0.0
  9
$PUCSORGFRONT
 10
0.0
 20
0.0
 30
0.0
  9
$PUCSORGBACK
 10
0.0
 20
0.0
 30
0.0
  9
$USERI1
 70
     0
  9
$USERI2
 70
     0
  9
$USERI3
 70
     0
  9
$USERI4
 70
     0
  9
$USERI5
 70
     0
  9
$USERR1
 40
0.0
  9
$USERR2
 40
0.0
  9
$USERR3
 40
0.0
  9
$USERR4
 40
0.0
  9
$USERR5
 40
0.0
  9
$WORLDVIEW
 70
     1
  9
$SHADEDGE
 70
     3
  9
$SHADEDIF
 70
    70
  9
$TILEMODE
 70
     1
  9
$MAXACTVP
 70
    64
  9
$PINSBASE
 10
0.0
 20
0.0
 30
0.0
  9
$PLIMCHECK
 70
     0
  9
$PEXTMIN
 10
1.0000000000E+20
 20
1.0000000000E+20
 30
1.0000000000E+20
  9
$PEXTMAX
 10
-1.0000000000E+20
 20
-1.0000000000E+20
 30
-1.0000000000E+20
  9
$PLIMMIN
 10
0.0
 20
0.0
  9
$PLIMMAX
 10
420.0
 20
297.0
  9
$UNITMODE
 70
     0
  9
$VISRETAIN
 70
     1
  9
$PLINEGEN
 70
     0
  9
$PSLTSCALE
 70
     1
  9
$TREEDEPTH
 70
  3020
  9
$CMLSTYLE
  2
Standard
  9
$CMLJUST
 70
     0
  9
$CMLSCALE
 40
20.0
  9
$PROXYGRAPHICS
 70
     1
  9
$MEASUREMENT
 70
     1
  9
$CELWEIGHT
370
    -1
  9
$ENDCAPS
280
     0
  9
$JOINSTYLE
280
     0
  9
$LWDISPLAY
290
     1
  9
$INSUNITS
 70
     4
  9
$HYPERLINKBASE
  1

  9
$STYLESHEET
  1

  9
$XEDIT
290
     1
  9
$CEPSNTYPE
380
     0
  9
$PSTYLEMODE
290
     1
  9
$FINGERPRINTGUID
  2
{cffaece4-b333-4465-b629-4d1485f54b3d}
  9
$VERSIONGUID
  2
{FAEB1C32-E019-11D5-929B-00C0DF256EC4}
  9
$EXTNAMES
290
     1
  9
$PSVPSCALE
 40
0.0
  9
$OLESTARTUP
290
     0
  0
ENDSEC
  0
SECTION
  2
CLASSES
  0
CLASS
  1
ACDBDICTIONARYWDFLT
  2
AcDbDictionaryWithDefault
  3
ObjectDBX Classes
 90
        0
280
     0
281
     0
  0
CLASS
  1
VISUALSTYLE
  2
AcDbVisualStyle
  3
ObjectDBX Classes
 90
     4095
280
     0
281
     0
  0
CLASS
  1
MATERIAL
  2
AcDbMaterial
  3
ObjectDBX Classes
 90
     1153
280
     0
281
     0
  0
CLASS
  1
SCALE
  2
AcDbScale
  3
ObjectDBX Classes
 90
     1153
280
     0
281
     0
  0
CLASS
  1
TABLESTYLE
  2
AcDbTableStyle
  3
ObjectDBX Classes
 90
     4095
280
     0
281
     0
  0
CLASS
  1
MLEADERSTYLE
  2
AcDbMLeaderStyle
  3
ACDB_MLEADERSTYLE_CLASS
 90
     4095
280
     0
281
     0
  0
CLASS
  1
SUN
  2
AcDbSun
  3
SCENEOE
 90
     1153
280
     0
281
     0
  0
CLASS
  1
ACDBPLACEHOLDER
  2
AcDbPlaceHolder
  3
ObjectDBX Classes
 90
        0
280
     0
281
     0
  0
CLASS
  1
LAYOUT
  2
AcDbLayout
  3
ObjectDBX Classes
 90
        0
280
     0
281
     0
  0
ENDSEC
  0
SECTION
  2
TABLES
  0
TABLE
  2
VPORT
  5
8
330
0
100
AcDbSymbolTable
 70
     1
  0
VPORT
  5
29
330
8
100
AcDbSymbolTableRecord
100
AcDbViewportTableRecord
  2
*Active
 70
     0
 10
0.0
 20
0.0
 11
1.0
 21
1.0
 12
139.7
 22
107.95
 13
0.0
 23
0.0
 14
10.0
 24
10.0
 15
10.0
 25
10.0
 16
0.0
 26
0.0
 36
1.0
 17
0.0
 27
0.0
 37
0.0
 40
215.9
 41
1.2941176471
 42
50.0
 43
0.0
 44
0.0
 50
0.0
 51
0.0
 71
     0
 72
  2000
 73
     1
 74
     3
 75
     0
 76
     0
 77
     0
 78
     0
281
     0
 65
     1
110
0.0
120
0.0
130
0.0
111
1.0
121
0.0
131
0.0
112
0.0
122
1.0
132
0.0
 79
     0
146
0.0
  0
ENDTAB
  0
TABLE
  2
LTYPE
  5
5
330
0
100
AcDbSymbolTable
 70
     6
  0
LTYPE
  5
14
330
5
100
AcDbSymbolTableRecord
100
AcDbLinetypeTableRecord
  2
ByBlock
 70
     0
  3

 72
    65
 73
     0
 40
0.0
  0
LTYPE
  5
15
330
5
100
AcDbSymbolTableRecord
100
AcDbLinetypeTableRecord
  2
ByLayer
 70
     0
  3

 72
    65
 73
     0
 40
0.0
  0
LTYPE
  5
16
330
5
100
AcDbSymbolTableRecord
100
AcDbLinetypeTableRecord
  2
Continuous
 70
     0
  3
Solid line
 72
    65
 73
     0
 40
0.0
  0
LTYPE
  5
6E
330
5
100
AcDbSymbolTableRecord
100
AcDbLinetypeTableRecord
  2
HIDDEN
 70
     0
  3
Hidden __ __ __ __ __ __ __ __ __ __ __ __ __ __
 72
    65
 73
     2
 40
1.905
 49
1.27
 74
     0
 49
-0.635
 74
     0
  0
LTYPE
  5
6F
330
5
100
AcDbSymbolTableRecord
100
AcDbLinetypeTableRecord
  2
PHANTOM
 70
     0
  3
Phantom ______  __  __  ______  __  __  ______
 72
    65
 73
     6
 40
12.7
 49
6.35
 74
     0
 49
-1.27
 74
     0
 49
1.27
 74
     0
 49
-1.27
 74
     0
 49
1.27
 74
     0
 49
-1.27
 74
     0
  0
LTYPE
  5
70
330
5
100
AcDbSymbolTableRecord
100
AcDbLinetypeTableRecord
  2
CENTER
 70
     0
  3
Center ____ _ ____ _ ____ _ ____ _ ____ _ ____
 72
    65
 73
     4
 40
10.16
 49
6.35
 74
     0
 49
-1.27
 74
     0
 49
1.27
 74
     0
 49
-1.27
 74
     0
  0
LTYPE
  5
71
330
5
100
AcDbSymbolTableRecord
100
AcDbLinetypeTableRecord
  2
CENTERX2
 70
     0
  3
Center (2x) ________  __  ________  __  _____
 72
    65
 73
     4
 40
20.32
 49
12.7
 74
     0
 49
-2.54
 74
     0
 49
2.54
 74
     0
 49
-2.54
 74
     0
  0
LTYPE
  5
72
330
5
100
AcDbSymbolTableRecord
100
AcDbLinetypeTableRecord
  2
DOT2
 70
     0
  3
Dot (.5x) ........................................
 72
    65
 73
     2
 40
0.635
 49
0.0
 74
     0
 49
-0.635
 74
     0
  0
ENDTAB
  0
TABLE
  2
LAYER
  5
2
330
0
100
AcDbSymbolTable
 70
    17
  0
LAYER
  5
10
330
2
100
AcDbSymbolTableRecord
100
AcDbLayerTableRecord
  2
0
 70
     0
 62
     7
  6
Continuous
370
    -3
390
F
  0
LAYER
  5
73
330
2
100
AcDbSymbolTableRecord
100
AcDbLayerTableRecord
  2
FORMAT
 70
     0
 62
     7
  6
Continuous
370
    -3
390
F
  0
LAYER
  5
74
330
2
100
AcDbSymbolTableRecord
100
AcDbLayerTableRecord
  2
YARDIMCI_GEOMETRI
 70
     0
 62
    -6
  6
Continuous
290
     0
370
    -3
390
F
  0
LAYER
  5
75
330
2
100
AcDbSymbolTableRecord
100
AcDbLayerTableRecord
  2
SAYFA_CERCEVESI
 70
     0
 62
     7
  6
Continuous
370
    25
390
F
  0
LAYER
  5
76
330
2
100
AcDbSymbolTableRecord
100
AcDbLayerTableRecord
  2
ANTET
 70
     0
 62
     7
  6
Continuous
370
    -3
390
F
  0
LAYER
  5
77
330
2
100
AcDbSymbolTableRecord
100
AcDbLayerTableRecord
  2
OLCU
 70
     0
 62
   150
  6
Continuous
370
    -3
390
F
  0
LAYER
  5
78
330
2
100
AcDbSymbolTableRecord
100
AcDbLayerTableRecord
  2
METIN
 70
     0
 62
    96
  6
Continuous
370
    -3
390
F
  0
LAYER
  5
79
330
2
100
AcDbSymbolTableRecord
100
AcDbLayerTableRecord
  2
BALON
 70
     0
 62
     5
  6
Continuous
370
    -3
390
F
  0
LAYER
  5
7A
330
2
100
AcDbSymbolTableRecord
100
AcDbLayerTableRecord
  2
VURGU
 70
     0
 62
     7
  6
Continuous
370
    -3
390
F
  0
LAYER
  5
7B
330
2
100
AcDbSymbolTableRecord
100
AcDbLayerTableRecord
  2
SILIK
 70
     0
 62
     7
  6
Continuous
370
    -3
390
F
  0
LAYER
  5
7C
330
2
100
AcDbSymbolTableRecord
100
AcDbLayerTableRecord
  2
MODEL
 70
     0
 62
     7
  6
Continuous
370
    -3
390
F
  0
LAYER
  5
7D
330
2
100
AcDbSymbolTableRecord
100
AcDbLayerTableRecord
  2
DETAYLANDıRMA
 70
     0
 62
   190
  6
Continuous
370
    -3
390
F
  0
LAYER
  5
7E
330
2
100
AcDbSymbolTableRecord
100
AcDbLayerTableRecord
  2
TOLERANS
 70
     0
 62
   230
  6
Continuous
370
    -3
390
F
  0
LAYER
  5
7F
330
2
100
AcDbSymbolTableRecord
100
AcDbLayerTableRecord
  2
MERKEZ_CIZGILERI
 70
     0
 62
    30
  6
Continuous
370
    -3
390
F
  0
LAYER
  5
80
330
2
100
AcDbSymbolTableRecord
100
AcDbLayerTableRecord
  2
KESIT-DETAY_CIZGILERI
 70
     0
 62
     7
  6
Continuous
370
    -3
390
F
  0
LAYER
  5
81
330
2
100
AcDbSymbolTableRecord
100
AcDbLayerTableRecord
  2
\U+041E\U+0421\U+0415\U+0412\U+042B\U+0415
 70
     0
 62
     7
  6
Continuous
370
    -3
390
F
  0
LAYER
  5
82
330
2
100
AcDbSymbolTableRecord
100
AcDbLayerTableRecord
  2
\U+0412\U+041E\U+0414\U+042F\U+041D\U+042B\U+0415_\U+0417\U+041D\U+0410\U+041A\U+0418
 70
     0
 62
    11
  6
Continuous
370
    -3
390
F
  0
ENDTAB
  0
TABLE
  2
STYLE
  5
3
330
0
100
AcDbSymbolTable
 70
     1
  0
STYLE
  5
11
330
3
100
AcDbSymbolTableRecord
100
AcDbTextStyleTableRecord
  2
Standard
 70
     0
 40
0.0
 41
1.0
 50
0.0
 71
     0
 42
3.5
  3
txt
  4

  0
ENDTAB
  0
TABLE
  2
VIEW
  5
6
330
0
100
AcDbSymbolTable
 70
     0
  0
ENDTAB
  0
TABLE
  2
UCS
  5
7
330
0
100
AcDbSymbolTable
 70
     0
  0
ENDTAB
  0
TABLE
  2
APPID
  5
9
330
0
100
AcDbSymbolTable
 70
     1
  0
APPID
  5
12
330
9
100
AcDbSymbolTableRecord
100
AcDbRegAppTableRecord
  2
ACAD
 70
     0
  0
ENDTAB
  0
TABLE
  2
DIMSTYLE
  5
A
330
0
100
AcDbSymbolTable
 70
     1
100
AcDbDimStyleTable
  0
DIMSTYLE
105
27
330
A
100
AcDbSymbolTableRecord
100
AcDbDimStyleTableRecord
  2
ISO-25
 70
     0
 41
2.5
 42
0.625
 43
3.75
 44
1.25
 73
     0
 74
     0
 77
     1
 78
     8
140
2.5
141
2.5
143
0.0393700787
147
0.625
171
     3
172
     1
178
     0
271
     2
272
     2
274
     3
278
    44
283
     0
284
     8
340
11
  0
ENDTAB
  0
TABLE
  2
BLOCK_RECORD
  5
1
330
0
100
AcDbSymbolTable
 70
     3
  0
BLOCK_RECORD
  5
1F
330
1
100
AcDbSymbolTableRecord
100
AcDbBlockTableRecord
  2
*Model_Space
340
22
  0
BLOCK_RECORD
  5
1B
330
1
100
AcDbSymbolTableRecord
100
AcDbBlockTableRecord
  2
*Paper_Space
340
1E
  0
BLOCK_RECORD
  5
23
330
1
100
AcDbSymbolTableRecord
100
AcDbBlockTableRecord
  2
*Paper_Space0
340
26
  0
BLOCK_RECORD
  5
88
330
1
100
AcDbSymbolTableRecord
100
AcDbBlockTableRecord
  2
SW_CENTERMARKSYMBOL_0
340
0
102
{BLKREFS
331
93
102
}
  0
BLOCK_RECORD
  5
9C
330
1
100
AcDbSymbolTableRecord
100
AcDbBlockTableRecord
  2
SW_CENTERMARKSYMBOL_1
340
0
102
{BLKREFS
331
A7
102
}
  0
ENDTAB
  0
ENDSEC
  0
SECTION
  2
BLOCKS
  0
BLOCK
  5
20
330
1F
100
AcDbEntity
  8
0
100
AcDbBlockBegin
  2
*Model_Space
 70
     0
 10
0.0
 20
0.0
 30
0.0
  3
*Model_Space
  1

  0
ENDBLK
  5
21
330
1F
100
AcDbEntity
  8
0
100
AcDbBlockEnd
  0
BLOCK
  5
1C
330
1B
100
AcDbEntity
 67
     1
  8
0
100
AcDbBlockBegin
  2
*Paper_Space
 70
     0
 10
0.0
 20
0.0
 30
0.0
  3
*Paper_Space
  1

  0
ENDBLK
  5
1D
330
1B
100
AcDbEntity
 67
     1
  8
0
100
AcDbBlockEnd
  0
BLOCK
  5
24
330
23
100
AcDbEntity
  8
0
100
AcDbBlockBegin
  2
*Paper_Space0
 70
     0
 10
0.0
 20
0.0
 30
0.0
  3
*Paper_Space0
  1

  0
ENDBLK
  5
25
330
23
100
AcDbEntity
  8
0
100
AcDbBlockEnd
  0
BLOCK
  5
89
330
88
100
AcDbEntity
  8
0
100
AcDbBlockBegin
  2
SW_CENTERMARKSYMBOL_0
 70
     0
 10
0.0
 20
0.0
 30
0.0
  3
SW_CENTERMARKSYMBOL_0
  1

  0
LINE
  5
8B
330
88
100
AcDbEntity
  8
FORMAT
 62
     0
100
AcDbLine
 10
0.0
 20
0.0
 30
0.0
 11
2.5
 21
0.0
 31
0.0
  0
LINE
  5
8C
330
88
100
AcDbEntity
  8
FORMAT
 62
     0
100
AcDbLine
 10
0.0
 20
0.0
 30
0.0
 11
0.0
 21
2.5
 31
0.0
  0
LINE
  5
8D
330
88
100
AcDbEntity
  8
FORMAT
 62
     0
100
AcDbLine
 10
0.0
 20
0.0
 30
0.0
 11
-2.5
 21
0.0
 31
0.0
  0
LINE
  5
8E
330
88
100
AcDbEntity
  8
FORMAT
 62
     0
100
AcDbLine
 10
0.0
 20
0.0
 30
0.0
 11
0.0
 21
-2.5
 31
0.0
  0
LINE
  5
8F
330
88
100
AcDbEntity
  8
FORMAT
 62
     0
100
AcDbLine
 10
5.0
 20
0.0
 30
0.0
 11
102.5
 21
0.0
 31
0.0
  0
LINE
  5
90
330
88
100
AcDbEntity
  8
FORMAT
 62
     0
100
AcDbLine
 10
0.0
 20
5.0
 30
0.0
 11
0.0
 21
102.5
 31
0.0
  0
LINE
  5
91
330
88
100
AcDbEntity
  8
FORMAT
 62
     0
100
AcDbLine
 10
-5.0
 20
0.0
 30
0.0
 11
-102.5
 21
0.0
 31
0.0
  0
LINE
  5
92
330
88
100
AcDbEntity
  8
FORMAT
 62
     0
100
AcDbLine
 10
0.0
 20
-5.0
 30
0.0
 11
0.0
 21
-102.5
 31
0.0
  0
ENDBLK
  5
8A
330
88
100
AcDbEntity
  8
0
100
AcDbBlockEnd
  0
BLOCK
  5
9D
330
9C
100
AcDbEntity
  8
0
100
AcDbBlockBegin
  2
SW_CENTERMARKSYMBOL_1
 70
     0
 10
0.0
 20
0.0
 30
0.0
  3
SW_CENTERMARKSYMBOL_1
  1

  0
LINE
  5
9F
330
9C
100
AcDbEntity
  8
FORMAT
 62
     0
100
AcDbLine
 10
0.0
 20
0.0
 30
0.0
 11
0.0
 21
2.5
 31
0.0
  0
LINE
  5
A0
330
9C
100
AcDbEntity
  8
FORMAT
 62
     0
100
AcDbLine
 10
0.0
 20
0.0
 30
0.0
 11
-2.5
 21
0.0
 31
0.0
  0
LINE
  5
A1
330
9C
100
AcDbEntity
  8
FORMAT
 62
     0
100
AcDbLine
 10
0.0
 20
0.0
 30
0.0
 11
0.0
 21
-2.5
 31
0.0
  0
LINE
  5
A2
330
9C
100
AcDbEntity
  8
FORMAT
 62
     0
100
AcDbLine
 10
0.0
 20
0.0
 30
0.0
 11
2.5
 21
0.0
 31
0.0
  0
LINE
  5
A3
330
9C
100
AcDbEntity
  8
FORMAT
 62
     0
100
AcDbLine
 10
0.0
 20
5.0
 30
0.0
 11
0.0
 21
47.5
 31
0.0
  0
LINE
  5
A4
330
9C
100
AcDbEntity
  8
FORMAT
 62
     0
100
AcDbLine
 10
-5.0
 20
0.0
 30
0.0
 11
-47.5
 21
0.0
 31
0.0
  0
LINE
  5
A5
330
9C
100
AcDbEntity
  8
FORMAT
 62
     0
100
AcDbLine
 10
0.0
 20
-5.0
 30
0.0
 11
0.0
 21
-47.5
 31
0.0
  0
LINE
  5
A6
330
9C
100
AcDbEntity
  8
FORMAT
 62
     0
100
AcDbLine
 10
5.0
 20
0.0
 30
0.0
 11
47.5
 21
0.0
 31
0.0
  0
ENDBLK
  5
9E
330
9C
100
AcDbEntity
  8
0
100
AcDbBlockEnd
  0
ENDSEC
  0
SECTION
  2
ENTITIES
  0
LINE
  5
83
330
1F
100
AcDbEntity
  8
0
  6
Continuous
 62
     7
370
    25
100
AcDbLine
 10
95.2388257771
 20
63.8453018356
 30
0.0
 11
95.2388257771
 21
-53.8167405438
 31
0.0
  0
LINE
  5
84
330
1F
100
AcDbEntity
  8
0
  6
Continuous
 62
     7
370
    25
100
AcDbLine
 10
185.2388293534
 20
-53.8167405438
 30
0.0
 11
185.2388293534
 21
63.8442438531
 31
0.0
  0
CIRCLE
  5
85
330
1F
100
AcDbEntity
  8
0
  6
Continuous
 62
     7
370
    25
100
AcDbCircle
 10
140.2388275653
 20
153.1832617212
 30
0.0
 40
88.1
  0
CIRCLE
  5
86
330
1F
100
AcDbEntity
  8
0
  6
Continuous
 62
     7
370
    25
100
AcDbCircle
 10
140.2388275653
 20
153.1832617212
 30
0.0
 40
100.0
  0
LINE
  5
87
330
1F
100
AcDbEntity
  8
0
  6
Continuous
 62
     7
370
    25
100
AcDbLine
 10
185.2388293534
 20
-53.8167405438
 30
0.0
 11
95.2388257771
 21
-53.8167405438
 31
0.0
  0
INSERT
  5
93
330
1F
100
AcDbEntity
  8
FORMAT
 62
     7
100
AcDbBlockReference
  2
SW_CENTERMARKSYMBOL_0
 10
140.2388275653
 20
153.1832617212
 30
0.0
  0
LINE
  5
94
330
1F
100
AcDbEntity
  8
0
  6
Continuous
 62
     7
370
    25
100
AcDbLine
 10
240.2388290554
 20
374.1090253293
 30
0.0
 11
240.2388290554
 21
855.1090315282
 31
0.0
  0
LINE
  5
95
330
1F
100
AcDbEntity
  8
0
  6
Continuous
 62
     7
370
    25
100
AcDbLine
 10
40.2388260752
 20
855.1090315282
 30
0.0
 11
40.2388260752
 21
374.1090253293
 31
0.0
  0
CIRCLE
  5
96
330
1F
100
AcDbEntity
  8
0
  6
Continuous
 62
     7
370
    25
100
AcDbCircle
 10
140.2388275653
 20
614.6090284287
 30
0.0
 40
39.60000000000002
  0
CIRCLE
  5
97
330
1F
100
AcDbEntity
  8
0
  6
Continuous
 62
     7
370
    25
100
AcDbCircle
 10
140.2388275653
 20
614.6090284287
 30
0.0
 40
45.0
  0
LINE
  5
98
330
1F
100
AcDbEntity
  8
0
  6
Continuous
 62
     7
370
    25
100
AcDbLine
 10
140.2388275653
 20
855.1090315282
 30
0.0
 11
240.2388290554
 21
855.1090315282
 31
0.0
  0
LINE
  5
99
330
1F
100
AcDbEntity
  8
0
  6
Continuous
 62
     7
370
    25
100
AcDbLine
 10
40.2388260752
 20
855.1090315282
 30
0.0
 11
140.2388275653
 21
855.1090315282
 31
0.0
  0
LINE
  5
9A
330
1F
100
AcDbEntity
  8
0
  6
Continuous
 62
     7
370
    25
100
AcDbLine
 10
140.2388275653
 20
374.1090253293
 30
0.0
 11
240.2388290554
 21
374.1090253293
 31
0.0
  0
LINE
  5
9B
330
1F
100
AcDbEntity
  8
0
  6
Continuous
 62
     7
370
    25
100
AcDbLine
 10
40.2388260752
 20
374.1090253293
 30
0.0
 11
140.2388275653
 21
374.1090253293
 31
0.0
  0
INSERT
  5
A7
330
1F
100
AcDbEntity
  8
FORMAT
100
AcDbBlockReference
  2
SW_CENTERMARKSYMBOL_1
 10
140.2388275653
 20
614.6090284287
 30
0.0
  0
LINE
  5
A8
330
1F
100
AcDbEntity
  8
0
  6
Continuous
 62
     7
370
    25
100
AcDbLine
 10
-166.9078679305
 20
253.1832632113
 30
0.0
 11
-647.9078741293
 21
253.1832632113
 31
0.0
  0
LINE
  5
A9
330
1F
100
AcDbEntity
  8
0
  6
Continuous
 62
     7
370
    25
100
AcDbLine
 10
-362.4078692418
 20
53.183260231
 30
0.0
 11
-166.9078679305
 21
53.183260231
 31
0.0
  0
LINE
  5
AA
330
1F
100
AcDbEntity
  8
0
  6
Continuous
 62
     7
370
    25
100
AcDbLine
 10
-647.9078741293
 20
53.183260231
 30
0.0
 11
-452.407872818
 21
53.183260231
 31
0.0
  0
LINE
  5
AB
330
1F
100
AcDbEntity
  8
0
  6
Continuous
 62
     7
370
    25
100
AcDbLine
 10
-452.407872818
 20
53.183260231
 30
0.0
 11
-452.407872818
 21
-53.8167405438
 31
0.0
  0
LINE
  5
AC
330
1F
100
AcDbEntity
  8
0
  6
Continuous
 62
     7
370
    25
100
AcDbLine
 10
-362.4078692418
 20
-53.8167405438
 30
0.0
 11
-362.4078692418
 21
53.183260231
 31
0.0
  0
LWPOLYLINE
  5
AD
330
1F
100
AcDbEntity
  8
0
  6
Continuous
 62
     7
370
    25
100
AcDbPolyline
 90
       27
 70
   128
 43
0.0
 10
-362.527395181
 20
53.2369193125
 10
-362.7546527903
 20
53.3388358045
 10
-364.1113290112
 20
53.9381605077
 10
-366.5217631977
 20
54.9657818365
 10
-369.9001954418
 20
56.3234340835
 10
-374.2582672756
 20
57.9262625861
 10
-379.7297929894
 20
59.6895393419
 10
-386.162465952
 20
61.3880183983
 10
-389.6241975497
 20
62.1267211127
 10
-393.2325370159
 20
62.7623599458
 10
-397.0951973941
 20
63.2865455437
 10
-401.0565230172
 20
63.6548351932
 10
-408.1831798438
 20
63.8770413089
 10
-415.5188319754
 20
63.5128196764
 10
-421.9704554897
 20
62.7008405018
 10
-428.2049895745
 20
61.4907321024
 10
-434.1381085586
 20
59.9657472658
 10
-439.5258077901
 20
58.280351429
 10
-444.3683573525
 20
56.5340098429
 10
-446.4666978937
 20
55.7123300123
 10
-448.2744918685
 20
54.9738880682
 10
-449.7173526805
 20
54.3648552585
 10
-450.8635872524
 20
53.8686167884
 10
-451.7226317447
 20
53.4898516226
 10
-452.2401192706
 20
53.2586377549
 10
-452.407872818
 20
53.183260231
 10
-452.407872818
 20
53.183260231
  0
LINE
  5
AE
330
1F
100
AcDbEntity
  8
0
  6
Continuous
 62
     7
370
    25
100
AcDbLine
 10
-647.9078741293
 20
53.183260231
 30
0.0
 11
-647.9078741293
 21
253.1832632113
 31
0.0
  0
LINE
  5
AF
330
1F
100
AcDbEntity
  8
0
  6
Continuous
 62
     7
370
    25
100
AcDbLine
 10
-166.9078679305
 20
53.183260231
 30
0.0
 11
-166.9078679305
 21
253.1832632113
 31
0.0
  0
LINE
  5
B0
330
1F
100
AcDbEntity
  8
0
  6
Continuous
 62
     7
370
    25
100
AcDbLine
 10
-362.4078692418
 20
-53.8167405438
 30
0.0
 11
-452.407872818
 21
-53.8167405438
 31
0.0
  0
LINE
  5
B1
330
1F
100
AcDbEntity
  8
0
  6
Continuous
 62
     7
370
    25
100
AcDbLine
 10
673.9732505391
 20
53.183260231
 30
0.0
 11
869.4732518504
 21
53.183260231
 31
0.0
  0
LINE
  5
B2
330
1F
100
AcDbEntity
  8
0
  6
Continuous
 62
     7
370
    25
100
AcDbLine
 10
388.4732456515
 20
53.183260231
 30
0.0
 11
584.092772902
 21
53.183260231
 31
0.0
  0
LINE
  5
B3
330
1F
100
AcDbEntity
  8
0
  6
Continuous
 62
     7
370
    25
100
AcDbLine
 10
869.4732518504
 20
253.1832632113
 30
0.0
 11
388.4732456515
 21
253.1832632113
 31
0.0
  0
LINE
  5
B4
330
1F
100
AcDbEntity
  8
0
  6
Continuous
 62
     7
370
    25
100
AcDbLine
 10
583.9732469628
 20
53.2368522573
 30
0.0
 11
583.9732469628
 21
-53.8167405438
 31
0.0
  0
LINE
  5
B5
330
1F
100
AcDbEntity
  8
0
  6
Continuous
 62
     7
370
    25
100
AcDbLine
 10
673.9732505391
 20
-53.8167405438
 30
0.0
 11
673.9732505391
 21
53.183260231
 31
0.0
  0
SPLINE
  5
B6
330
1F
100
AcDbEntity
  8
0
  6
Continuous
 62
     7
370
    25
100
AcDbSpline
210
0.0
220
0.0
230
1.0
 70
     8
 71
     3
 72
    31
 73
    27
 74
     0
 42
0.000000001
 43
0.00000001
 40
0.0
 40
0.0
 40
0.0
 40
0.0
 40
0.049414391172059
 40
0.1003440241662697
 40
0.149738094556077
 40
0.2004359756071974
 40
0.2524127183651684
 40
0.3057309457584205
 40
0.3606334808938371
 40
0.3888731337600334
 40
0.4173588795121373
 40
0.4692138840685673
 40
0.4959612450953105
 40
0.5229546859728087
 40
0.5701835212875868
 40
0.6187323401248842
 40
0.6671384748828042
 40
0.7167096182508808
 40
0.7699013647787917
 40
0.8245376309808415
 40
0.8517906072911972
 40
0.8792517124026411
 40
0.9074011824036008
 40
0.9358033707527639
 40
0.9865577356849133
 40
1.0
 40
1.0
 40
1.0
 40
1.0
 10
673.9732505390942
 20
53.18326023103504
 30
0.0
 10
673.8652908035635
 20
53.23207764506105
 30
0.0
 10
673.6460608575069
 20
53.33120940924093
 30
0.0
 10
671.8920473501541
 20
54.10927755058428
 30
0.0
 10
669.1464082209047
 20
55.27477926285749
 30
0.0
 10
665.3893923656241
 20
56.76753038958603
 30
0.0
 10
660.6284702070072
 20
58.47863246065499
 30
0.0
 10
654.8898173578478
 20
60.25935605837191
 30
0.0
 10
649.3555014883976
 20
61.63526996358605
 30
0.0
 10
644.5092377670228
 20
62.5643525215206
 30
0.0
 10
639.6139522024126
 20
63.30568203716397
 30
0.0
 10
634.5731106587009
 20
63.76589196011971
 30
0.0
 10
629.5355647171441
 20
63.9062746235691
 30
0.0
 10
624.7113853125171
 20
63.83284968287765
 30
0.0
 10
618.9025889281862
 20
63.39642185985817
 30
0.0
 10
612.3651457275289
 20
62.42162982989462
 30
0.0
 10
606.1673591443666
 20
61.07441472678582
 30
0.0
 10
600.3601569705164
 20
59.45875938303539
 30
0.0
 10
595.0635550964859
 20
57.69702352972754
 30
0.0
 10
591.2907369412696
 20
56.2687775199829
 30
0.0
 10
588.7797806074655
 20
55.25636525451104
 30
0.0
 10
587.168444401094
 20
54.58281987408661
 30
0.0
 10
585.8393765101391
 20
54.01077490048971
 30
0.0
 10
584.6193477559539
 20
53.47434664986836
 30
0.0
 10
583.8843308984868
 20
53.14335758771097
 30
0.0
 10
584.0566836125427
 20
53.22072019660508
 30
0.0
 10
584.0927729020417
 20
53.23691931249409
 30
0.0
  0
LINE
  5
B7
330
1F
100
AcDbEntity
  8
0
  6
Continuous
 62
     7
370
    25
100
AcDbLine
 10
869.4732518504
 20
253.1832632113
 30
0.0
 11
869.4732518504
 21
53.183260231
 31
0.0
  0
LINE
  5
B8
330
1F
100
AcDbEntity
  8
0
  6
Continuous
 62
     7
370
    25
100
AcDbLine
 10
388.4732456515
 20
253.1832632113
 30
0.0
 11
388.4732456515
 21
53.183260231
 31
0.0
  0
LINE
  5
B9
330
1F
100
AcDbEntity
  8
0
  6
Continuous
 62
     7
370
    25
100
AcDbLine
 10
673.9732505391
 20
-53.8167405438
 30
0.0
 11
583.9732469628
 21
-53.8167405438
 31
0.0
  0
LINE
  5
BA
330
1F
100
AcDbEntity
  8
0
  6
Continuous
 62
     7
370
    25
100
AcDbLine
 10
40.2388260752
 20
-159.9078411959
 30
0.0
 11
40.2388260752
 21
-640.9078473948
 31
0.0
  0
LINE
  5
BB
330
1F
100
AcDbEntity
  8
0
  6
Continuous
 62
     7
370
    25
100
AcDbLine
 10
240.2388290554
 20
-640.9078473948
 30
0.0
 11
240.2388290554
 21
-159.9078411959
 31
0.0
  0
LINE
  5
BC
330
1F
100
AcDbEntity
  8
0
  6
Continuous
 62
     7
370
    25
100
AcDbLine
 10
240.2388290554
 20
-640.9078473948
 30
0.0
 11
40.2388260752
 21
-640.9078473948
 31
0.0
  0
LINE
  5
BD
330
1F
100
AcDbEntity
  8
0
  6
Continuous
 62
     7
370
    25
100
AcDbLine
 10
240.2388290554
 20
-159.9078411959
 30
0.0
 11
40.2388260752
 21
-159.9078411959
 31
0.0
  0
LINE
  5
BE
330
1F
100
AcDbEntity
  8
0
  6
Continuous
 62
     7
370
    25
100
AcDbLine
 10
845.9473178753
 20
-346.3421924148
 30
0.0
 11
505.8289517413
 21
-149.996038991
 31
0.0
  0
LINE
  5
BF
330
1F
100
AcDbEntity
  8
0
  6
Continuous
 62
     7
370
    25
100
AcDbLine
 10
405.8370814725
 20
-323.20581244
 30
0.0
 11
580.8922011553
 21
-424.2629819706
 31
0.0
  0
LINE
  5
C0
330
1F
100
AcDbEntity
  8
0
  6
Continuous
 62
     7
370
    25
100
AcDbLine
 10
670.8922054365
 20
-476.2188785298
 30
0.0
 11
745.9554476065
 21
-519.5519658638
 31
0.0
  0
LINE
  5
C1
330
1F
100
AcDbEntity
  8
0
  6
Continuous
 62
     7
370
    25
100
AcDbLine
 10
580.8921991796
 20
-412.1822927534
 30
0.0
 11
580.8921991796
 21
-503.7979523372
 31
0.0
  0
LINE
  5
C2
330
1F
100
AcDbEntity
  8
0
  6
Continuous
 62
     7
370
    25
100
AcDbLine
 10
670.8922001682
 20
-503.7979523372
 30
0.0
 11
670.8922001682
 21
-412.1842334547
 31
0.0
  0
SPLINE
  5
C3
330
1F
100
AcDbEntity
  8
0
  6
Continuous
 62
     7
370
    25
100
AcDbSpline
210
0.0
220
0.0
230
1.0
 70
     8
 71
     3
 72
    12
 73
     8
 74
     0
 42
0.000000001
 43
0.00000001
 40
0.0
 40
0.0
 40
0.0
 40
0.0
 40
0.1978170347719048
 40
0.4016999268196129
 40
0.599435612883298
 40
0.8023907492489599
 40
1.0
 40
1.0
 40
1.0
 40
1.0
 10
594.0723932560938
 20
-398.0589015867786
 30
0.0
 10
592.479054186848
 20
-399.027173829399
 30
0.0
 10
589.2435179335982
 20
-400.9934093937454
 30
0.0
 10
585.5693650330414
 20
-403.9083512832271
 30
0.0
 10
582.8706122987397
 20
-406.7665568339684
 30
0.0
 10
581.1924557535144
 20
-409.5128110243438
 30
0.0
 10
581.0100812214614
 20
-411.3012020112486
 30
0.0
 10
580.920110930057
 20
-412.1834636758865
 30
0.0
  0
SPLINE
  5
C4
330
1F
100
AcDbEntity
  8
0
  6
Continuous
 62
     7
370
    25
100
AcDbSpline
210
0.0
220
0.0
230
1.0
 70
     8
 71
     3
 72
    27
 73
    23
 74
     0
 42
0.000000001
 43
0.00000001
 40
0.0
 40
0.0
 40
0.0
 40
0.0
 40
0.0528606591718484
 40
0.1260249295501696
 40
0.1622981450229398
 40
0.1988538172709416
 40
0.2363540330264698
 40
0.2742061597507852
 40
0.3406932489196967
 40
0.4093859777907873
 40
0.4719012588423369
 40
0.5360283514287263
 40
0.6026585575218771
 40
0.6709149946859229
 40
0.7434335937507445
 40
0.7806518146318846
 40
0.8181604726041635
 40
0.8538205426653955
 40
0.8897614034193473
 40
0.926627876264698
 40
0.9638309203090486
 40
1.0
 40
1.0
 40
1.0
 40
1.0
 10
670.7742285049973
 20
-412.1869661141164
 30
0.0
 10
670.7561036011061
 20
-410.7632887496632
 30
0.0
 10
670.7128920753371
 20
-407.3691040692546
 30
0.0
 10
669.4332373810261
 20
-403.1018832100883
 30
0.0
 10
667.7534039129729
 20
-399.4903064791195
 30
0.0
 10
666.1526958190169
 20
-396.9064606373144
 30
0.0
 10
664.2134697344933
 20
-394.4730111242259
 30
0.0
 10
661.3589504906176
 20
-391.6764906620414
 30
0.0
 10
657.2381481665079
 20
-388.8181929642567
 30
0.0
 10
651.73428079902
 20
-386.511351071711
 30
0.0
 10
645.71627886673
 20
-385.1828312054148
 30
0.0
 10
639.364299715353
 20
-384.7298920364559
 30
0.0
 10
632.5551636865978
 20
-385.0843891260404
 30
0.0
 10
625.3206583886544
 20
-386.2083189982947
 30
0.0
 10
619.1080791520714
 20
-387.732652726343
 30
0.0
 10
614.0678834777608
 20
-389.2741504668562
 30
0.0
 10
610.3611670678921
 20
-390.5545079183556
 30
0.0
 10
606.796321500428
 20
-391.9211321789507
 30
0.0
 10
603.3736957311991
 20
-393.3604657279672
 30
0.0
 10
600.0627633737508
 20
-394.8856513955871
 30
0.0
 10
596.9170544459417
 20
-396.4607411978303
 30
0.0
 10
595.0116633576738
 20
-397.5312098264292
 30
0.0
 10
594.0723932560938
 20
-398.0589015867786
 30
0.0
  0
LWPOLYLINE
  5
C5
330
1F
100
AcDbEntity
  8
0
  6
Continuous
 62
     7
370
    25
100
AcDbPolyline
 90
      107
 70
   128
 43
0.0
 10
455.8330166069
 20
-318.2550081208
 10
460.0219615873
 20
-315.6933766068
 10
464.1961927079
 20
-312.8539279867
 10
468.3410474749
 20
-309.7466354961
 10
472.4419687623
 20
-306.3824214383
 10
476.4845482746
 20
-302.7730955908
 10
480.4545891093
 20
-298.93133734
 10
484.3381472451
 20
-294.8706413125
 10
488.1215802738
 20
-290.6052649074
 10
491.7915961333
 20
-286.1502062476
 10
495.3353084244
 20
-281.5210992409
 10
498.7402653877
 20
-276.7342090202
 10
501.9945104891
 20
-271.806348298
 10
505.0866140301
 20
-266.7548226164
 10
508.0057100264
 20
-261.5973847225
 10
510.7415462569
 20
-256.3521509221
 10
513.2845132403
 20
-251.0375356829
 10
515.625681113
 20
-245.6722120938
 10
517.7568259713
 20
-240.2750266955
 10
519.670461481
 20
-234.8649325625
 10
521.35986522
 20
-229.4609375944
 10
522.8191050193
 20
-224.0820193466
 10
524.0430547684
 20
-218.7470763619
 10
525.0274102205
 20
-213.4748475629
 10
525.7687206022
 20
-208.2838476158
 10
526.2643780774
 20
-203.192313697
 10
526.5126388202
 20
-198.2181303993
 10
526.5126388202
 20
-193.3787662346
 10
526.2643780774
 20
-188.6912186892
 10
525.7687206022
 20
-184.1719587101
 10
525.0274102205
 20
-179.8368575115
 10
524.0430547684
 20
-175.701141326
 10
522.8191050193
 20
-171.779340642
 10
521.35986522
 20
-168.0852248045
 10
519.670461481
 20
-164.631773875
 10
517.7568259713
 20
-161.4311162724
 10
515.625681113
 20
-158.4944983527
 10
513.2845132403
 20
-155.8322296534
 10
510.7415462569
 20
-153.4536615977
 10
508.0057100264
 20
-151.3671570736
 10
505.0866140301
 20
-149.5800356777
 10
501.9945104891
 20
-148.0985767536
 10
498.7402653877
 20
-146.9279874497
 10
495.3353084244
 20
-146.0723768592
 10
491.7915961333
 20
-145.5347529742
 10
488.1215802738
 20
-145.317004432
 10
484.3381472451
 20
-145.4198868209
 10
480.4545891093
 20
-145.8430515753
 10
476.4845482746
 20
-146.5850049053
 10
472.4419687623
 20
-147.6431420129
 10
468.3410474749
 20
-149.0137508899
 10
464.1961927079
 20
-150.6920058501
 10
460.0219615873
 20
-152.6720218966
 10
455.8330166069
 20
-154.9468433102
 10
451.6440716264
 20
-157.5084748242
 10
447.4698405059
 20
-160.3479234443
 10
443.3249857388
 20
-163.4552159349
 10
439.2240644515
 20
-166.8194299927
 10
435.1814849392
 20
-170.4287558403
 10
431.2114441045
 20
-174.2705140911
 10
427.3278859687
 20
-178.3312101185
 10
423.54445294
 20
-182.5965865236
 10
419.8744370805
 20
-187.0516451834
 10
416.3307247894
 20
-191.6807521901
 10
412.9257678261
 20
-196.4676424109
 10
409.6715227247
 20
-201.395503133
 10
406.5794191837
 20
-206.4470288146
 10
403.6603231874
 20
-211.6044667086
 10
400.9244869569
 20
-216.849700509
 10
398.3815199735
 20
-222.1643157481
 10
396.0403521008
 20
-227.5296393372
 10
393.9092072425
 20
-232.9268247355
 10
391.9955717327
 20
-238.3369188686
 10
390.3061679937
 20
-243.7409138366
 10
388.8469281945
 20
-249.1198320844
 10
387.6229784453
 20
-254.4547750691
 10
386.6386229933
 20
-259.7270038681
 10
385.8973126116
 20
-264.9180038152
 10
385.4016551364
 20
-270.009537734
 10
385.1533943936
 20
-274.9837210318
 10
385.1533943936
 20
-279.8230851965
 10
385.4016551364
 20
-284.5106327418
 10
385.8973126116
 20
-289.0298927209
 10
386.6386229933
 20
-293.3649939195
 10
387.6229784453
 20
-297.500710105
 10
388.8469281945
 20
-301.422510789
 10
390.3061679937
 20
-305.1166266265
 10
391.9955717327
 20
-308.570077556
 10
393.9092072425
 20
-311.7707351586
 10
396.0403521008
 20
-314.7073530783
 10
398.3815199735
 20
-317.3696217777
 10
400.9244869569
 20
-319.7481898333
 10
403.6603231874
 20
-321.8346943574
 10
406.5794191837
 20
-323.6218157533
 10
409.6715227247
 20
-325.1032746775
 10
412.9257678261
 20
-326.2738639813
 10
416.3307247894
 20
-327.1294745718
 10
419.8744370805
 20
-327.6670984569
 10
423.54445294
 20
-327.8848469991
 10
427.3278859687
 20
-327.7819646101
 10
431.2114441045
 20
-327.3587998557
 10
435.1814849392
 20
-326.6168465257
 10
439.2240644515
 20
-325.5587094182
 10
443.3249857388
 20
-324.1881005411
 10
447.4698405059
 20
-322.5098455809
 10
451.6440716264
 20
-320.5298295345
 10
455.8330166069
 20
-318.2550081208
  0
LWPOLYLINE
  5
C6
330
1F
100
AcDbEntity
  8
0
  6
Continuous
 62
     7
370
    25
100
AcDbPolyline
 90
       41
 70
   128
 43
0.0
 10
795.9513827409
 20
-514.6011615446
 10
800.1403277213
 20
-512.0395300306
 10
804.3145588419
 20
-509.2000814105
 10
808.459413609
 20
-506.0927889199
 10
812.5603348963
 20
-502.7285748621
 10
816.6029144086
 20
-499.1192490145
 10
820.5729552433
 20
-495.2774907637
 10
824.4565133791
 20
-491.2167947363
 10
828.2399464078
 20
-486.9514183312
 10
831.9099622673
 20
-482.4963596714
 10
835.4536745584
 20
-477.8672526647
 10
838.8586315217
 20
-473.0803624439
 10
842.1128766231
 20
-468.1525017218
 10
845.2049801641
 20
-463.1009760402
 10
848.1240761604
 20
-457.9435381462
 10
850.8599123909
 20
-452.6983043458
 10
853.4028793743
 20
-447.3836891067
 10
855.744047247
 20
-442.0183655176
 10
857.8751921053
 20
-436.6211801192
 10
859.788827615
 20
-431.2110859862
 10
861.478231354
 20
-425.8070910182
 10
862.9374711533
 20
-420.4281727704
 10
864.1614209024
 20
-415.0932297857
 10
865.1457763545
 20
-409.8210009867
 10
865.8870867362
 20
-404.6300010396
 10
866.3827442114
 20
-399.5384671208
 10
866.6310049542
 20
-394.564283823
 10
866.6310049542
 20
-389.7249196583
 10
866.3827442114
 20
-385.037372113
 10
865.8870867362
 20
-380.5181121339
 10
865.1457763545
 20
-376.1830109352
 10
864.1614209024
 20
-372.0472947498
 10
862.9374711533
 20
-368.1254940658
 10
861.478231354
 20
-364.4313782283
 10
859.788827615
 20
-360.9779272988
 10
857.8751921053
 20
-357.7772696962
 10
855.744047247
 20
-354.8406517765
 10
853.4028793743
 20
-352.1783830771
 10
850.8599123909
 20
-349.7998150215
 10
848.1240761604
 20
-347.7133104974
 10
845.9473178753
 20
-346.3421924148
  0
LWPOLYLINE
  5
C7
330
1F
100
AcDbEntity
  8
0
  6
Continuous
 62
     7
370
    25
100
AcDbPolyline
 90
       15
 70
   128
 43
0.0
 10
745.9554476065
 20
-519.5519658638
 10
746.6977853177
 20
-519.9679691771
 10
749.7898888587
 20
-521.4494281012
 10
753.0441339601
 20
-522.6200174051
 10
756.4490909234
 20
-523.4756279956
 10
759.9928032145
 20
-524.0132518806
 10
763.662819074
 20
-524.2310004228
 10
767.4462521027
 20
-524.1281180339
 10
771.3298102385
 20
-523.7049532795
 10
775.2998510732
 20
-522.9629999495
 10
779.3424305855
 20
-521.9048628419
 10
783.4433518728
 20
-520.5342539649
 10
787.5882066399
 20
-518.8559990047
 10
791.7624377604
 20
-516.8759829582
 10
795.9513827409
 20
-514.6011615446
  0
LWPOLYLINE
  5
C8
330
1F
100
AcDbEntity
  8
0
  6
Continuous
 62
     7
370
    25
100
AcDbPolyline
 90
      100
 70
   128
 43
0.0
 10
455.8330166069
 20
-308.5381722355
 10
459.7840798353
 20
-306.1124372637
 10
463.7192339454
 20
-303.4068071087
 10
467.6226320516
 20
-300.4321699221
 10
471.4785589769
 20
-297.2005119762
 10
475.2714855833
 20
-293.7248376304
 10
478.9861402236
 20
-290.019146334
 10
482.6075660351
 20
-286.0983569655
 10
486.121180208
 20
-281.9782553662
 10
489.5128345723
 20
-277.6754411134
 10
492.7688735489
 20
-273.2072332286
 10
495.8761815655
 20
-268.5916245541
 10
498.8222515448
 20
-263.8471996292
 10
501.5952217831
 20
-258.9930647317
 10
504.1839180971
 20
-254.0487657511
 10
506.5779275811
 20
-249.034209108
 10
508.7676038752
 20
-243.9695857078
 10
510.7441277514
 20
-238.8752964216
 10
512.4995492602
 20
-233.7718456247
 10
514.0267929996
 20
-228.6797864442
 10
515.3197107979
 20
-223.6196219037
 10
516.3730922511
 20
-218.6117319198
 10
517.1827068692
 20
-213.6762752063
 10
517.7452830031
 20
-208.8331299562
 10
518.0585657965
 20
-204.1017927056
 10
518.121280307
 20
-199.5013227211
 10
517.9331894589
 20
-195.0502352557
 10
517.4950413584
 20
-190.7664587676
 10
516.8086009051
 20
-186.6672423367
 10
515.8766287174
 20
-182.76909359
 10
514.7028916699
 20
-179.0877012305
 10
513.292099673
 20
-175.6378992893
 10
511.6499425512
 20
-172.4335713107
 10
509.783026823
 20
-169.4876244909
 10
507.6988757008
 20
-166.811919715
 10
505.405881676
 20
-164.4172259252
 10
502.9132749082
 20
-162.3131927406
 10
500.2310916158
 20
-160.5082926595
 10
497.3701292946
 20
-159.0097921577
 10
494.3419151075
 20
-157.8237182247
 10
491.1586400307
 20
-156.954853795
 10
487.8331193401
 20
-156.4066966796
 10
484.3787451969
 20
-156.1814504356
 10
480.8094286953
 20
-156.2800334866
 10
477.1395405935
 20
-156.7020342496
 10
473.3838586303
 20
-157.4457598
 10
469.5575056217
 20
-158.508216854
 10
465.6758882166
 20
-159.8851227894
 10
461.754638286
 20
-161.5709394812
 10
457.8095432818
 20
-163.5588709182
 10
453.856489932
 20
-165.8409200423
 10
449.9113949278
 20
-168.4078983431
 10
445.9901449971
 20
-171.2494604533
 10
442.108527592
 20
-174.3541745798
 10
438.2821745835
 20
-177.7095306737
 10
434.5264926203
 20
-181.302023219
 10
430.8566045185
 20
-185.1171850678
 10
427.2872880169
 20
-189.1396471307
 10
423.8329138737
 20
-193.3532288663
 10
420.5073931831
 20
-197.7409504437
 10
417.3241181062
 20
-202.2851460454
 10
414.2959039192
 20
-206.9675216579
 10
411.434941598
 20
-211.7692189453
 10
408.7527583056
 20
-216.6709019388
 10
406.2601515378
 20
-221.6528376397
 10
403.9671575129
 20
-226.6949659784
 10
401.8830063908
 20
-231.7769804202
 10
400.0160906626
 20
-236.8784222588
 10
398.3739335408
 20
-241.9787444928
 10
396.9631415438
 20
-247.0574122024
 10
395.7894044964
 20
-252.0939725113
 10
394.8574323087
 20
-257.0681534419
 10
394.1709918553
 20
-261.9599171504
 10
393.7328437549
 20
-266.7495686674
 10
393.5447529067
 20
-271.4178212036
 10
393.6074674173
 20
-275.9458825554
 10
393.9207502107
 20
-280.3155111921
 10
394.4833263446
 20
-284.5091198637
 10
395.2929409627
 20
-288.509815436
 10
396.3463224159
 20
-292.3014970818
 10
397.6392402142
 20
-295.8688905068
 10
399.1664839536
 20
-299.1976315992
 10
400.9219054624
 20
-302.2743158629
 10
402.8984293385
 20
-305.0865592565
 10
405.0881056327
 20
-307.6230362206
 10
407.4821151167
 20
-309.8735283482
 10
410.0708114307
 20
-311.828982184
 10
412.843781669
 20
-313.4815137925
 10
415.7898516483
 20
-314.8244787213
 10
418.8971596649
 20
-315.8524659246
 10
422.1531986415
 20
-316.5613312268
 10
425.5448530058
 20
-316.9482247034
 10
429.0584671787
 20
-317.0115937286
 10
432.6798929902
 20
-316.7511738547
 10
436.3945476305
 20
-316.168016194
 10
440.1874742369
 20
-315.2644706944
 10
444.0434011622
 20
-314.044170175
 10
447.9467992684
 20
-312.5120398374
 10
451.8819533785
 20
-310.6742377665
 10
455.8330166069
 20
-308.5381722355
  0
LWPOLYLINE
  5
C9
330
1F
100
AcDbEntity
  8
0
  6
Continuous
 62
     7
370
    25
100
AcDbPolyline
 90
       67
 70
   128
 43
0.0
 10
653.8936280572
 20
-519.9628328637
 10
656.4285395595
 20
-518.3530669138
 10
658.6869104422
 20
-516.6114881619
 10
660.6482887825
 20
-514.7538691816
 10
662.2949075433
 20
-512.7970299137
 10
663.6118589235
 20
-510.7586944379
 10
664.5872147063
 20
-508.6573211311
 10
665.2121444684
 20
-506.5119401458
 10
665.4809847271
 20
-504.3419811924
 10
665.391304136
 20
-502.1670960006
 10
664.9439113878
 20
-500.0069803999
 10
664.1428617995
 20
-497.8811956394
 10
662.9954085805
 20
-495.8089942708
 10
661.5119415873
 20
-493.8091418481
 10
659.7058990792
 20
-491.8997488934
 10
657.5936340335
 20
-490.0981085638
 10
655.1942742046
 20
-488.4205367903
 10
652.5295509027
 20
-486.882224772
 10
649.6235964914
 20
-485.4971038259
 10
646.5027257507
 20
-484.2777191703
 10
643.1952017644
 20
-483.2351130229
 10
639.7309804052
 20
-482.3787257565
 10
636.1414334163
 20
-481.7163151129
 10
632.4590672132
 20
-481.2538790289
 10
628.7172318068
 20
-480.9956046928
 10
624.9498119463
 20
-480.9438331896
 10
621.1909255055
 20
-481.0990313674
 10
617.4746139671
 20
-481.45979564
 10
613.834534224
 20
-482.0228565483
 10
610.3036510384
 20
-482.7831163975
 10
606.9139387219
 20
-483.7336891747
 10
603.6960996072
 20
-484.8659687892
 10
600.6792698438
 20
-486.1696985492
 10
597.8907712906
 20
-487.6330718107
 10
595.3558597883
 20
-489.2428377606
 10
593.0974889056
 20
-490.9844165125
 10
591.1361105653
 20
-492.8420354928
 10
589.4894918044
 20
-494.7988747607
 10
588.1725404243
 20
-496.8372102365
 10
587.1971846415
 20
-498.9385835433
 10
586.5722548794
 20
-501.0839645286
 10
586.3034146207
 20
-503.253923482
 10
586.3930952118
 20
-505.4288086738
 10
586.84048796
 20
-507.5889242745
 10
587.6415375482
 20
-509.714709035
 10
588.7889907673
 20
-511.7869104036
 10
590.2724577605
 20
-513.7867628262
 10
592.0785002686
 20
-515.6961557809
 10
594.1907653143
 20
-517.4977961106
 10
596.5901251432
 20
-519.1753678841
 10
599.2548484451
 20
-520.7136799024
 10
602.1608028564
 20
-522.0988008485
 10
605.2816735971
 20
-523.318185504
 10
608.5891975834
 20
-524.3607916515
 10
612.0534189426
 20
-525.2171789179
 10
615.6429659315
 20
-525.8795895615
 10
619.3253321346
 20
-526.3420256455
 10
623.067167541
 20
-526.6002999815
 10
626.8345874015
 20
-526.6520714848
 10
630.5934738423
 20
-526.496873307
 10
634.3097853806
 20
-526.1361090344
 10
637.9498651238
 20
-525.5730481261
 10
641.4807483094
 20
-524.8127882769
 10
644.8704606259
 20
-523.8622154997
 10
648.0882997406
 20
-522.7299358852
 10
651.105129504
 20
-521.4262061252
 10
653.8936280572
 20
-519.9628328637
  0
LWPOLYLINE
  5
CA
330
1F
100
AcDbEntity
  8
0
  6
Continuous
 62
     7
370
    25
100
AcDbPolyline
 90
       72
 70
   128
 43
0.0
 10
657.7120060917
 20
-522.1671355831
 10
660.399726097
 20
-520.4717828948
 10
662.8173789753
 20
-518.6459350725
 10
664.9460424378
 20
-516.7038825033
 10
666.7690576135
 20
-514.6608230393
 10
668.2721545014
 20
-512.5327469964
 10
669.4435695209
 20
-510.3363084664
 10
670.2741377082
 20
-508.0886991011
 10
670.7573592289
 20
-505.8075093505
 10
670.8894474521
 20
-503.5105912211
 10
670.6693710972
 20
-501.2159229356
 10
670.0988542336
 20
-498.9414614275
 10
669.1823578418
 20
-496.7050100416
 10
667.9270587399
 20
-494.5240695076
 10
666.3427804364
 20
-492.4157098232
 10
664.4419213486
 20
-490.3964314917
 10
662.2393566799
 20
-488.4820389259
 10
659.7523284427
 20
-486.6875130911
 10
657.0002962978
 20
-485.0269010659
 10
654.0048041995
 20
-483.5131964789
 10
650.7892907348
 20
-482.1582482675
 10
647.3789251455
 20
-480.9726599336
 10
643.8003969233
 20
-479.9657106583
 10
640.0817093563
 20
-479.1452817384
 10
636.2519727461
 20
-478.5177919584
 10
632.3411561361
 20
-478.0881546309
 10
628.379868675
 20
-477.8597304557
 10
624.3991106869
 20
-477.834308511
 10
620.4300379126
 20
-478.0120872455
 10
616.5037165307
 20
-478.3916759986
 10
612.6508689595
 20
-478.9701018436
 10
608.9016539034
 20
-479.7428407616
 10
605.2854161055
 20
-480.7038434932
 10
601.8304519065
 20
-481.8455887618
 10
598.5638011436
 20
-483.1591395394
 10
595.5110362527
 20
-484.634219175
 10
592.6960433016
 20
-486.2592800153
 10
590.1408535675
 20
-488.0216036747
 10
587.8654703398
 20
-489.9074010198
 10
585.8876952291
 20
-491.9019093976
 10
584.2230092997
 20
-493.9895190422
 10
582.8844411961
 20
-496.1538948241
 10
581.8824696784
 20
-498.3780963835
 10
581.2249314265
 20
-500.644713471
 10
580.9169762582
 20
-502.936010412
 10
580.9610131294
 20
-505.2340530832
 10
581.35669828
 20
-507.5208556586
 10
582.1009325993
 20
-509.7785220318
 10
583.1878945541
 20
-511.9893819174
 10
584.609073115
 20
-514.1361345549
 10
586.3533494166
 20
-516.2019749249
 10
588.4070711726
 20
-518.1707370733
 10
590.7541646288
 20
-520.0270134846
 10
593.376261991
 20
-521.7562742645
 10
596.2528380733
 20
-523.344988605
 10
599.3613848121
 20
-524.780719446
 10
602.6775693172
 20
-526.0522329643
 10
606.1754409837
 20
-527.1495755581
 10
609.8276227993
 20
-528.0641599553
 10
613.6055319568
 20
-528.7888287018
 10
617.4795991491
 20
-529.3179108069
 10
621.4195089384
 20
-529.6472631818
 10
625.3944216854
 20
-529.7743105572
 10
629.3732316988
 20
-529.698057649
 10
633.3247964088
 20
-529.4190998029
 10
637.2181918824
 20
-528.9396229944
 10
641.0229472653
 20
-528.2633794978
 10
644.7092825161
 20
-527.3956601344
 10
648.2483487758
 20
-526.3432558745
 10
651.6124470037
 20
-525.1144046144
 10
654.7752508952
 20
-523.7187233157
 10
657.7120060917
 20
-522.1671355831
  0
ENDSEC
  0
SECTION
  2
OBJECTS
  0
DICTIONARY
  5
C
330
0
100
AcDbDictionary
281
     1
  3
ACAD_GROUP
350
D
  3
ACAD_LAYOUT
350
1A
  3
ACAD_MLINESTYLE
350
17
  3
ACAD_PLOTSETTINGS
350
19
  3
ACAD_PLOTSTYLENAME
350
E
  3
ACAD_SCALELIST
350
47
  0
DICTIONARY
  5
D
102
{ACAD_REACTORS
330
C
102
}
330
C
100
AcDbDictionary
281
     1
  0
DICTIONARY
  5
1A
102
{ACAD_REACTORS
330
C
102
}
330
C
100
AcDbDictionary
281
     1
  3
Layout1
350
1E
  3
Layout2
350
26
  3
Model
350
22
  0
DICTIONARY
  5
17
102
{ACAD_REACTORS
330
C
102
}
330
C
100
AcDbDictionary
281
     1
  3
Standard
350
18
  0
DICTIONARY
  5
19
102
{ACAD_REACTORS
330
C
102
}
330
C
100
AcDbDictionary
281
     1
  0
ACDBDICTIONARYWDFLT
  5
E
102
{ACAD_REACTORS
330
C
102
}
330
C
100
AcDbDictionary
281
     1
  3
Normal
350
F
100
AcDbDictionaryWithDefault
340
F
  0
DICTIONARY
  5
47
102
{ACAD_REACTORS
330
C
102
}
330
C
100
AcDbDictionary
281
     1
  3
A0
350
48
  3
A1
350
49
  3
A2
350
4A
  3
A3
350
4B
  3
A4
350
4C
  3
A5
350
4D
  3
A6
350
4E
  3
A7
350
4F
  3
A8
350
50
  3
A9
350
51
  3
B0
350
52
  3
B1
350
53
  3
B2
350
54
  3
B3
350
55
  3
B4
350
56
  3
B5
350
57
  3
B6
350
58
  3
B7
350
59
  3
B8
350
5A
  3
B9
350
5B
  3
C0
350
5C
  3
C1
350
5D
  3
C2
350
5E
  3
C3
350
5F
  3
C4
350
60
  3
C5
350
61
  3
C6
350
62
  3
C7
350
63
  3
C8
350
64
  3
C9
350
65
  3
D0
350
66
  3
D1
350
67
  3
D2
350
68
  0
LAYOUT
  5
1E
102
{ACAD_REACTORS
330
1A
102
}
330
1A
100
AcDbPlotSettings
  1

  2
none_device
  4

  6

 40
0.0
 41
0.0
 42
0.0
 43
0.0
 44
0.0
 45
0.0
 46
0.0
 47
0.0
 48
0.0
 49
0.0
140
0.0
141
0.0
142
1.0
143
1.0
 70
   688
 72
     1
 73
     0
 74
     5
  7

 75
    16
147
1.0
148
0.0
149
0.0
100
AcDbLayout
  1
Layout1
 70
     1
 71
     1
 10
0.0
 20
0.0
 11
420.0
 21
297.0
 12
0.0
 22
0.0
 32
0.0
 14
1.0000000000E+20
 24
1.0000000000E+20
 34
1.0000000000E+20
 15
-1.0000000000E+20
 25
-1.0000000000E+20
 35
-1.0000000000E+20
146
0.0
 13
0.0
 23
0.0
 33
0.0
 16
1.0
 26
0.0
 36
0.0
 17
0.0
 27
1.0
 37
0.0
 76
     0
330
1B
  0
LAYOUT
  5
26
102
{ACAD_REACTORS
330
1A
102
}
330
1A
100
AcDbPlotSettings
  1

  2
none_device
  4

  6

 40
0.0
 41
0.0
 42
0.0
 43
0.0
 44
0.0
 45
0.0
 46
0.0
 47
0.0
 48
0.0
 49
0.0
140
0.0
141
0.0
142
1.0
143
1.0
 70
   688
 72
     1
 73
     0
 74
     5
  7

 75
    16
147
1.0
148
0.0
149
0.0
100
AcDbLayout
  1
Layout2
 70
     1
 71
     2
 10
0.0
 20
0.0
 11
0.0
 21
0.0
 12
0.0
 22
0.0
 32
0.0
 14
0.0
 24
0.0
 34
0.0
 15
0.0
 25
0.0
 35
0.0
146
0.0
 13
0.0
 23
0.0
 33
0.0
 16
1.0
 26
0.0
 36
0.0
 17
0.0
 27
1.0
 37
0.0
 76
     0
330
23
  0
LAYOUT
  5
22
102
{ACAD_REACTORS
330
1A
102
}
330
1A
100
AcDbPlotSettings
  1

  2
none_device
  4
Letter_(8.50_x_11.00_Inches)
  6

 40
6.35
 41
6.35
 42
6.35000508
 43
6.35000508
 44
215.9
 45
279.4
 46
0.0
 47
0.0
 48
0.0
 49
0.0
140
0.0
141
0.0
142
1.0
143
1.0
 70
  1712
 72
     1
 73
     0
 74
     0
  7

 75
     0
147
1.0
148
0.0
149
0.0
100
AcDbLayout
  1
Model
 70
     1
 71
     0
 10
0.0
 20
0.0
 11
279.4
 21
215.9
 12
0.0
 22
0.0
 32
0.0
 14
0.0
 24
0.0
 34
0.0
 15
279.4
 25
215.9
 35
0.0
146
0.0
 13
0.0
 23
0.0
 33
0.0
 16
1.0
 26
0.0
 36
0.0
 17
0.0
 27
1.0
 37
0.0
 76
     0
330
1F
331
29
  0
MLINESTYLE
  5
18
102
{ACAD_REACTORS
330
17
102
}
330
17
100
AcDbMlineStyle
  2
Standard
 70
     0
  3

 62
   256
 51
90.0
 52
90.0
 71
     2
 49
0.5
 62
   256
  6
BYLAYER
 49
-0.5
 62
   256
  6
BYLAYER
  0
ACDBPLACEHOLDER
  5
F
102
{ACAD_REACTORS
330
E
102
}
330
E
  0
SCALE
  5
48
102
{ACAD_REACTORS
330
47
102
}
330
47
100
AcDbScale
 70
     0
300
1:1
140
1.0
141
1.0
290
     1
  0
SCALE
  5
49
102
{ACAD_REACTORS
330
47
102
}
330
47
100
AcDbScale
 70
     0
300
1:2
140
1.0
141
2.0
290
     0
  0
SCALE
  5
4A
102
{ACAD_REACTORS
330
47
102
}
330
47
100
AcDbScale
 70
     0
300
1:4
140
1.0
141
4.0
290
     0
  0
SCALE
  5
4B
102
{ACAD_REACTORS
330
47
102
}
330
47
100
AcDbScale
 70
     0
300
1:5
140
1.0
141
5.0
290
     0
  0
SCALE
  5
4C
102
{ACAD_REACTORS
330
47
102
}
330
47
100
AcDbScale
 70
     0
300
1:8
140
1.0
141
8.0
290
     0
  0
SCALE
  5
4D
102
{ACAD_REACTORS
330
47
102
}
330
47
100
AcDbScale
 70
     0
300
1:10
140
1.0
141
10.0
290
     0
  0
SCALE
  5
4E
102
{ACAD_REACTORS
330
47
102
}
330
47
100
AcDbScale
 70
     0
300
1:16
140
1.0
141
16.0
290
     0
  0
SCALE
  5
4F
102
{ACAD_REACTORS
330
47
102
}
330
47
100
AcDbScale
 70
     0
300
1:20
140
1.0
141
20.0
290
     0
  0
SCALE
  5
50
102
{ACAD_REACTORS
330
47
102
}
330
47
100
AcDbScale
 70
     0
300
1:30
140
1.0
141
30.0
290
     0
  0
SCALE
  5
51
102
{ACAD_REACTORS
330
47
102
}
330
47
100
AcDbScale
 70
     0
300
1:40
140
1.0
141
40.0
290
     0
  0
SCALE
  5
52
102
{ACAD_REACTORS
330
47
102
}
330
47
100
AcDbScale
 70
     0
300
1:50
140
1.0
141
50.0
290
     0
  0
SCALE
  5
53
102
{ACAD_REACTORS
330
47
102
}
330
47
100
AcDbScale
 70
     0
300
1:100
140
1.0
141
100.0
290
     0
  0
SCALE
  5
54
102
{ACAD_REACTORS
330
47
102
}
330
47
100
AcDbScale
 70
     0
300
2:1
140
2.0
141
1.0
290
     0
  0
SCALE
  5
55
102
{ACAD_REACTORS
330
47
102
}
330
47
100
AcDbScale
 70
     0
300
4:1
140
4.0
141
1.0
290
     0
  0
SCALE
  5
56
102
{ACAD_REACTORS
330
47
102
}
330
47
100
AcDbScale
 70
     0
300
8:1
140
8.0
141
1.0
290
     0
  0
SCALE
  5
57
102
{ACAD_REACTORS
330
47
102
}
330
47
100
AcDbScale
 70
     0
300
10:1
140
10.0
141
1.0
290
     0
  0
SCALE
  5
58
102
{ACAD_REACTORS
330
47
102
}
330
47
100
AcDbScale
 70
     0
300
100:1
140
100.0
141
1.0
290
     0
  0
SCALE
  5
59
102
{ACAD_REACTORS
330
47
102
}
330
47
100
AcDbScale
 70
     0
300
1/128" = 1'-0"
140
0.0078125
141
12.0
290
     0
  0
SCALE
  5
5A
102
{ACAD_REACTORS
330
47
102
}
330
47
100
AcDbScale
 70
     0
300
1/64" = 1'-0"
140
0.015625
141
12.0
290
     0
  0
SCALE
  5
5B
102
{ACAD_REACTORS
330
47
102
}
330
47
100
AcDbScale
 70
     0
300
1/32" = 1'-0"
140
0.03125
141
12.0
290
     0
  0
SCALE
  5
5C
102
{ACAD_REACTORS
330
47
102
}
330
47
100
AcDbScale
 70
     0
300
1/16" = 1'-0"
140
0.0625
141
12.0
290
     0
  0
SCALE
  5
5D
102
{ACAD_REACTORS
330
47
102
}
330
47
100
AcDbScale
 70
     0
300
3/32" = 1'-0"
140
0.09375
141
12.0
290
     0
  0
SCALE
  5
5E
102
{ACAD_REACTORS
330
47
102
}
330
47
100
AcDbScale
 70
     0
300
1/8" = 1'-0"
140
0.125
141
12.0
290
     0
  0
SCALE
  5
5F
102
{ACAD_REACTORS
330
47
102
}
330
47
100
AcDbScale
 70
     0
300
3/16" = 1'-0"
140
0.1875
141
12.0
290
     0
  0
SCALE
  5
60
102
{ACAD_REACTORS
330
47
102
}
330
47
100
AcDbScale
 70
     0
300
1/4" = 1'-0"
140
0.25
141
12.0
290
     0
  0
SCALE
  5
61
102
{ACAD_REACTORS
330
47
102
}
330
47
100
AcDbScale
 70
     0
300
3/8" = 1'-0"
140
0.375
141
12.0
290
     0
  0
SCALE
  5
62
102
{ACAD_REACTORS
330
47
102
}
330
47
100
AcDbScale
 70
     0
300
1/2" = 1'-0"
140
0.5
141
12.0
290
     0
  0
SCALE
  5
63
102
{ACAD_REACTORS
330
47
102
}
330
47
100
AcDbScale
 70
     0
300
3/4" = 1'-0"
140
0.75
141
12.0
290
     0
  0
SCALE
  5
64
102
{ACAD_REACTORS
330
47
102
}
330
47
100
AcDbScale
 70
     0
300
1" = 1'-0"
140
1.0
141
12.0
290
     0
  0
SCALE
  5
65
102
{ACAD_REACTORS
330
47
102
}
330
47
100
AcDbScale
 70
     0
300
1-1/2" = 1'-0"
140
1.5
141
12.0
290
     0
  0
SCALE
  5
66
102
{ACAD_REACTORS
330
47
102
}
330
47
100
AcDbScale
 70
     0
300
3" = 1'-0"
140
3.0
141
12.0
290
     0
  0
SCALE
  5
67
102
{ACAD_REACTORS
330
47
102
}
330
47
100
AcDbScale
 70
     0
300
6" = 1'-0"
140
6.0
141
12.0
290
     0
  0
SCALE
  5
68
102
{ACAD_REACTORS
330
47
102
}
330
47
100
AcDbScale
 70
     0
300
1'-0" = 1'-0"
140
12.0
141
12.0
290
     0
  0
ENDSEC
  0
EOF
